ISO-10303-21;
HEADER;
FILE_DESCRIPTION (( 'STEP AP203' ),
    '1' );
FILE_NAME ('BK7-BSC-10-400-700.STEP',
    '2020-12-22T03:16:31',
    ( '' ),
    ( '' ),
    'SwSTEP 2.0',
    'SolidWorks 2020',
    '' );
FILE_SCHEMA (( 'CONFIG_CONTROL_DESIGN' ));
ENDSEC;

DATA;
#1 = ORIENTED_EDGE ( 'NONE', *, *, #215, .F. ) ;
#2 = DIRECTION ( 'NONE',  ( 2.220446049250313081E-16, 1.000000000000000000, 0.000000000000000000 ) ) ;
#3 = EDGE_LOOP ( 'NONE', ( #111, #270, #112 ) ) ;
#4 = CARTESIAN_POINT ( 'NONE',  ( 5.000000000000000888, 5.000000000000001776, 5.000000000000000000 ) ) ;
#5 = CALENDAR_DATE ( 2020, 22, 12 ) ;
#6 = CARTESIAN_POINT ( 'NONE',  ( -4.999999999999999112, 5.000000000000001776, -5.000000000000000000 ) ) ;
#7 = PLANE ( 'NONE',  #34 ) ;
#8 = LOCAL_TIME ( 11, 16, 31.00000000000000000, #143 ) ;
#9 = APPLICATION_CONTEXT ( 'configuration controlled 3d designs of mechanical parts and assemblies' ) ;
#10 = LINE ( 'NONE', #268, #254 ) ;
#11 = PLANE ( 'NONE',  #116 ) ;
#12 = EDGE_CURVE ( 'NONE', #165, #86, #299, .T. ) ;
#13 = MANIFOLD_SOLID_BREP ( 'Í¹Ì¨-À', #318 ) ;
#14 = APPLICATION_CONTEXT ( 'configuration controlled 3d designs of mechanical parts and assemblies' ) ;
#15 =( GEOMETRIC_REPRESENTATION_CONTEXT ( 3 ) GLOBAL_UNCERTAINTY_ASSIGNED_CONTEXT ( ( #47 ) ) GLOBAL_UNIT_ASSIGNED_CONTEXT ( ( #317, #321, #246 ) ) REPRESENTATION_CONTEXT ( 'NONE', 'WORKASPACE' ) );
#16 = APPROVAL ( #170, 'UNSPECIFIED' ) ;
#17 = EDGE_LOOP ( 'NONE', ( #27, #1, #193, #294 ) ) ;
#18 = ADVANCED_BREP_SHAPE_REPRESENTATION ( 'BK7-BSC-10-400-700', ( #13, #134, #187 ), #15 ) ;
#19 = APPROVAL_DATE_TIME ( #266, #16 ) ;
#20 = EDGE_LOOP ( 'NONE', ( #278, #263, #174, #287 ) ) ;
#21 = DIRECTION ( 'NONE',  ( 1.000000000000000000, 0.000000000000000000, 0.000000000000000000 ) ) ;
#22 = CLOSED_SHELL ( 'NONE', ( #248, #308, #98, #105, #137 ) ) ;
#23 = CARTESIAN_POINT ( 'NONE',  ( 0.000000000000000000, 0.000000000000000000, 5.000000000000000000 ) ) ;
#24 = VECTOR ( 'NONE', #158, 1000.000000000000000 ) ;
#25 = VERTEX_POINT ( 'NONE', #4 ) ;
#26 = CARTESIAN_POINT ( 'NONE',  ( 5.000000000000002665, 5.000000000000000000, 5.000000000000000000 ) ) ;
#27 = ORIENTED_EDGE ( 'NONE', *, *, #93, .F. ) ;
#28 = CARTESIAN_POINT ( 'NONE',  ( 5.000000000000000888, 5.000000000000001776, -5.000000000000000000 ) ) ;
#29 = CC_DESIGN_PERSON_AND_ORGANIZATION_ASSIGNMENT ( #107, #30, ( #122 ) ) ;
#30 = PERSON_AND_ORGANIZATION_ROLE ( 'design_owner' ) ;
#31 = DIRECTION ( 'NONE',  ( 1.000000000000000000, -4.857225732735059864E-17, 0.000000000000000000 ) ) ;
#32 = FACE_OUTER_BOUND ( 'NONE', #3, .T. ) ;
#33 = PRODUCT_RELATED_PRODUCT_CATEGORY ( 'detail', '', ( #122 ) ) ;
#34 = AXIS2_PLACEMENT_3D ( 'NONE', #157, #262, #169 ) ;
#35 = ORIENTED_EDGE ( 'NONE', *, *, #73, .F. ) ;
#36 = PERSON_AND_ORGANIZATION ( #209, #272 ) ;
#37 = ORIENTED_EDGE ( 'NONE', *, *, #50, .T. ) ;
#38 = EDGE_CURVE ( 'NONE', #57, #51, #113, .T. ) ;
#39 = CALENDAR_DATE ( 2020, 22, 12 ) ;
#40 = VECTOR ( 'NONE', #130, 1000.000000000000000 ) ;
#41 = EDGE_CURVE ( 'NONE', #291, #51, #252, .T. ) ;
#42 = PLANE ( 'NONE',  #280 ) ;
#43 = DIRECTION ( 'NONE',  ( 0.7071067811865474617, -0.7071067811865475727, 0.000000000000000000 ) ) ;
#44 = FACE_OUTER_BOUND ( 'NONE', #198, .T. ) ;
#45 = ADVANCED_FACE ( 'NONE', ( #180 ), #81, .F. ) ;
#46 = VECTOR ( 'NONE', #87, 1000.000000000000000 ) ;
#47 = UNCERTAINTY_MEASURE_WITH_UNIT (LENGTH_MEASURE( 1.000000000000000082E-05 ), #317, 'distance_accuracy_value', 'NONE');
#48 = CC_DESIGN_APPROVAL ( #312, ( #114 ) ) ;
#49 = APPLICATION_PROTOCOL_DEFINITION ( 'international standard', 'config_control_design', 1994, #9 ) ;
#50 = EDGE_CURVE ( 'NONE', #168, #291, #250, .T. ) ;
#51 = VERTEX_POINT ( 'NONE', #227 ) ;
#52 = LINE ( 'NONE', #288, #228 ) ;
#53 = PRODUCT_DEFINITION ( 'UNKNOWN', '', #261, #119 ) ;
#54 = PERSON_AND_ORGANIZATION ( #209, #272 ) ;
#55 = ORIENTED_EDGE ( 'NONE', *, *, #38, .T. ) ;
#56 = CARTESIAN_POINT ( 'NONE',  ( 0.000000000000000000, 0.000000000000000000, 5.000000000000000000 ) ) ;
#57 = VERTEX_POINT ( 'NONE', #274 ) ;
#58 = DIRECTION ( 'NONE',  ( 2.220446049250313081E-16, 1.000000000000000000, 0.000000000000000000 ) ) ;
#59 = APPROVAL_DATE_TIME ( #226, #106 ) ;
#60 = PLANE ( 'NONE',  #239 ) ;
#61 = PERSON_AND_ORGANIZATION_ROLE ( 'creator' ) ;
#62 = EDGE_CURVE ( 'NONE', #96, #152, #205, .T. ) ;
#63 = ORIENTED_EDGE ( 'NONE', *, *, #279, .F. ) ;
#64 = CARTESIAN_POINT ( 'NONE',  ( -4.999999999999999112, 5.000000000000001776, 5.000000000000000000 ) ) ;
#65 = CC_DESIGN_DATE_AND_TIME_ASSIGNMENT ( #300, #182, ( #114 ) ) ;
#66 = EDGE_CURVE ( 'NONE', #275, #165, #295, .T. ) ;
#67 = APPROVAL_ROLE ( '' ) ;
#68 = ORIENTED_EDGE ( 'NONE', *, *, #159, .F. ) ;
#69 = AXIS2_PLACEMENT_3D ( 'NONE', #178, #175, #225 ) ;
#70 = FACE_OUTER_BOUND ( 'NONE', #17, .T. ) ;
#71 = CARTESIAN_POINT ( 'NONE',  ( 5.000000000000002665, 5.000000000000000000, 5.000000000000000000 ) ) ;
#72 = CARTESIAN_POINT ( 'NONE',  ( 5.000000000000000888, -5.000000000000000000, -5.000000000000000000 ) ) ;
#73 = EDGE_CURVE ( 'NONE', #152, #25, #316, .T. ) ;
#74 = VECTOR ( 'NONE', #84, 1000.000000000000000 ) ;
#75 = ORIENTED_EDGE ( 'NONE', *, *, #221, .T. ) ;
#76 = DIRECTION ( 'NONE',  ( -0.000000000000000000, 0.000000000000000000, 1.000000000000000000 ) ) ;
#77 = ORIENTED_EDGE ( 'NONE', *, *, #269, .F. ) ;
#78 = EDGE_CURVE ( 'NONE', #152, #165, #199, .T. ) ;
#79 = FACE_OUTER_BOUND ( 'NONE', #314, .T. ) ;
#80 = PERSON_AND_ORGANIZATION ( #209, #272 ) ;
#81 = PLANE ( 'NONE',  #284 ) ;
#82 = PERSON_AND_ORGANIZATION ( #209, #272 ) ;
#83 = VECTOR ( 'NONE', #319, 1000.000000000000000 ) ;
#84 = DIRECTION ( 'NONE',  ( -0.7071067811865475727, -0.7071067811865474617, 0.000000000000000000 ) ) ;
#85 = AXIS2_PLACEMENT_3D ( 'NONE', #208, #309, #194 ) ;
#86 = VERTEX_POINT ( 'NONE', #28 ) ;
#87 = DIRECTION ( 'NONE',  ( -0.7071067811865475727, -0.7071067811865474617, 0.000000000000000000 ) ) ;
#88 = DIRECTION ( 'NONE',  ( -0.7071067811865475727, -0.7071067811865474617, 0.000000000000000000 ) ) ;
#89 = PLANE ( 'NONE',  #69 ) ;
#90 = COORDINATED_UNIVERSAL_TIME_OFFSET ( 8, 0, .AHEAD. ) ;
#91 = SHAPE_DEFINITION_REPRESENTATION ( #102, #18 ) ;
#92 = COORDINATED_UNIVERSAL_TIME_OFFSET ( 8, 0, .AHEAD. ) ;
#93 = EDGE_CURVE ( 'NONE', #86, #275, #222, .T. ) ;
#94 = DIRECTION ( 'NONE',  ( 1.734723475976807094E-16, 1.000000000000000000, -0.000000000000000000 ) ) ;
#95 = PLANE ( 'NONE',  #183 ) ;
#96 = VERTEX_POINT ( 'NONE', #104 ) ;
#97 = DIRECTION ( 'NONE',  ( 1.000000000000000000, -2.220446049250313081E-16, 0.000000000000000000 ) ) ;
#98 = ADVANCED_FACE ( 'NONE', ( #148 ), #89, .F. ) ;
#99 = ORIENTED_EDGE ( 'NONE', *, *, #221, .F. ) ;
#100 = APPLICATION_PROTOCOL_DEFINITION ( 'international standard', 'config_control_design', 1994, #14 ) ;
#101 = DIRECTION ( 'NONE',  ( 0.000000000000000000, -0.000000000000000000, 1.000000000000000000 ) ) ;
#102 = PRODUCT_DEFINITION_SHAPE ( 'NONE', 'NONE',  #53 ) ;
#103 = DATE_TIME_ROLE ( 'creation_date' ) ;
#104 = CARTESIAN_POINT ( 'NONE',  ( -5.000000000000000888, -4.999999999999998224, 5.000000000000000000 ) ) ;
#105 = ADVANCED_FACE ( 'NONE', ( #289 ), #276, .T. ) ;
#106 = APPROVAL ( #223, 'UNSPECIFIED' ) ;
#107 = PERSON_AND_ORGANIZATION ( #209, #272 ) ;
#108 = DIRECTION ( 'NONE',  ( 0.000000000000000000, -0.000000000000000000, 1.000000000000000000 ) ) ;
#109 = LOCAL_TIME ( 11, 16, 31.00000000000000000, #90 ) ;
#110 = SECURITY_CLASSIFICATION_LEVEL ( 'unclassified' ) ;
#111 = ORIENTED_EDGE ( 'NONE', *, *, #93, .T. ) ;
#112 = ORIENTED_EDGE ( 'NONE', *, *, #12, .T. ) ;
#113 = LINE ( 'NONE', #207, #120 ) ;
#114 = SECURITY_CLASSIFICATION ( '', '', #110 ) ;
#115 = CARTESIAN_POINT ( 'NONE',  ( -4.999999999999999112, -5.000000000000000000, -5.000000000000000000 ) ) ;
#116 = AXIS2_PLACEMENT_3D ( 'NONE', #184, #76, #140 ) ;
#117 = CARTESIAN_POINT ( 'NONE',  ( -5.000000000000000888, -4.999999999999998224, 5.000000000000000000 ) ) ;
#118 = CARTESIAN_POINT ( 'NONE',  ( -5.000000000000000888, -4.999999999999998224, -5.000000000000000000 ) ) ;
#119 = DESIGN_CONTEXT ( 'detailed design', #9, 'design' ) ;
#120 = VECTOR ( 'NONE', #302, 1000.000000000000000 ) ;
#121 = LOCAL_TIME ( 11, 16, 31.00000000000000000, #92 ) ;
#122 = PRODUCT ( 'BK7-BSC-10-400-700', 'BK7-BSC-10-400-700', '', ( #217 ) ) ;
#123 = CARTESIAN_POINT ( 'NONE',  ( 5.000000000000002665, 5.000000000000000000, -5.000000000000000000 ) ) ;
#124 = DIRECTION ( 'NONE',  ( -0.000000000000000000, -0.000000000000000000, -1.000000000000000000 ) ) ;
#125 = DIRECTION ( 'NONE',  ( 1.000000000000000000, -4.857225732735059864E-17, 0.000000000000000000 ) ) ;
#126 = EDGE_CURVE ( 'NONE', #25, #96, #292, .T. ) ;
#127 = ORIENTED_EDGE ( 'NONE', *, *, #126, .F. ) ;
#128 = CALENDAR_DATE ( 2020, 22, 12 ) ;
#129 = ORIENTED_EDGE ( 'NONE', *, *, #41, .T. ) ;
#130 = DIRECTION ( 'NONE',  ( 2.220446049250313081E-16, 1.000000000000000000, 0.000000000000000000 ) ) ;
#131 = PERSON_AND_ORGANIZATION ( #209, #272 ) ;
#132 = ORIENTED_EDGE ( 'NONE', *, *, #279, .T. ) ;
#133 = CARTESIAN_POINT ( 'NONE',  ( 0.000000000000000000, 0.000000000000000000, -5.000000000000000000 ) ) ;
#134 = MANIFOLD_SOLID_BREP ( '¾µÏ', #22 ) ;
#135 = DATE_AND_TIME ( #5, #121 ) ;
#136 = VECTOR ( 'NONE', #31, 1000.000000000000000 ) ;
#137 = ADVANCED_FACE ( 'NONE', ( #32 ), #60, .F. ) ;
#138 = LOCAL_TIME ( 11, 16, 31.00000000000000000, #192 ) ;
#139 = DIRECTION ( 'NONE',  ( 0.7071067811865475727, 0.7071067811865474617, 0.000000000000000000 ) ) ;
#140 = DIRECTION ( 'NONE',  ( 1.000000000000000000, 0.000000000000000000, 0.000000000000000000 ) ) ;
#141 = LINE ( 'NONE', #236, #164 ) ;
#142 = VECTOR ( 'NONE', #163, 1000.000000000000000 ) ;
#143 = COORDINATED_UNIVERSAL_TIME_OFFSET ( 8, 0, .AHEAD. ) ;
#144 = DIRECTION ( 'NONE',  ( 1.000000000000000000, 0.000000000000000000, 0.000000000000000000 ) ) ;
#145 = PERSON_AND_ORGANIZATION ( #209, #272 ) ;
#146 = ORIENTED_EDGE ( 'NONE', *, *, #62, .T. ) ;
#147 = LINE ( 'NONE', #115, #219 ) ;
#148 = FACE_OUTER_BOUND ( 'NONE', #20, .T. ) ;
#149 = DATE_AND_TIME ( #128, #240 ) ;
#150 = ORIENTED_EDGE ( 'NONE', *, *, #62, .F. ) ;
#151 = DIRECTION ( 'NONE',  ( -0.000000000000000000, -0.000000000000000000, -1.000000000000000000 ) ) ;
#152 = VERTEX_POINT ( 'NONE', #307 ) ;
#153 = EDGE_LOOP ( 'NONE', ( #177, #68, #77, #55 ) ) ;
#154 = CC_DESIGN_APPROVAL ( #16, ( #261 ) ) ;
#155 = EDGE_LOOP ( 'NONE', ( #127, #35, #150 ) ) ;
#156 = CC_DESIGN_DATE_AND_TIME_ASSIGNMENT ( #149, #103, ( #53 ) ) ;
#157 = CARTESIAN_POINT ( 'NONE',  ( 5.000000000000002665, 5.000000000000000000, 5.000000000000000000 ) ) ;
#158 = DIRECTION ( 'NONE',  ( -0.000000000000000000, 0.000000000000000000, -1.000000000000000000 ) ) ;
#159 = EDGE_CURVE ( 'NONE', #206, #242, #52, .T. ) ;
#160 = DIRECTION ( 'NONE',  ( 0.000000000000000000, -0.000000000000000000, 1.000000000000000000 ) ) ;
#161 = CC_DESIGN_SECURITY_CLASSIFICATION ( #114, ( #261 ) ) ;
#162 = CC_DESIGN_PERSON_AND_ORGANIZATION_ASSIGNMENT ( #145, #244, ( #114 ) ) ;
#163 = DIRECTION ( 'NONE',  ( 1.734723475976807094E-16, 1.000000000000000000, -0.000000000000000000 ) ) ;
#164 = VECTOR ( 'NONE', #94, 1000.000000000000000 ) ;
#165 = VERTEX_POINT ( 'NONE', #6 ) ;
#166 = LINE ( 'NONE', #117, #285 ) ;
#167 = CALENDAR_DATE ( 2020, 22, 12 ) ;
#168 = VERTEX_POINT ( 'NONE', #306 ) ;
#169 = DIRECTION ( 'NONE',  ( -1.734723475976807094E-16, -1.000000000000000000, 0.000000000000000000 ) ) ;
#170 = APPROVAL_STATUS ( 'not_yet_approved' ) ;
#171 = ORIENTED_EDGE ( 'NONE', *, *, #189, .F. ) ;
#172 = PERSON_AND_ORGANIZATION_ROLE ( 'design_supplier' ) ;
#173 = CC_DESIGN_APPROVAL ( #106, ( #53 ) ) ;
#174 = ORIENTED_EDGE ( 'NONE', *, *, #73, .T. ) ;
#175 = DIRECTION ( 'NONE',  ( -4.857225732735059864E-17, -1.000000000000000000, 0.000000000000000000 ) ) ;
#176 = PERSON_AND_ORGANIZATION ( #209, #272 ) ;
#177 = ORIENTED_EDGE ( 'NONE', *, *, #238, .T. ) ;
#178 = CARTESIAN_POINT ( 'NONE',  ( 5.000000000000000888, 5.000000000000001776, 5.000000000000000000 ) ) ;
#179 = ADVANCED_FACE ( 'NONE', ( #79 ), #11, .F. ) ;
#180 = FACE_OUTER_BOUND ( 'NONE', #153, .T. ) ;
#181 = DIRECTION ( 'NONE',  ( 0.000000000000000000, 1.000000000000000000, 0.000000000000000000 ) ) ;
#182 = DATE_TIME_ROLE ( 'classification_date' ) ;
#183 = AXIS2_PLACEMENT_3D ( 'NONE', #56, #213, #21 ) ;
#184 = CARTESIAN_POINT ( 'NONE',  ( 0.000000000000000000, 0.000000000000000000, -5.000000000000000000 ) ) ;
#185 = FACE_OUTER_BOUND ( 'NONE', #273, .T. ) ;
#186 = PLANE ( 'NONE',  #85 ) ;
#187 = AXIS2_PLACEMENT_3D ( 'NONE', #201, #203, #293 ) ;
#188 = ADVANCED_FACE ( 'NONE', ( #281 ), #95, .T. ) ;
#189 = EDGE_CURVE ( 'NONE', #96, #275, #166, .T. ) ;
#190 = ORIENTED_EDGE ( 'NONE', *, *, #78, .T. ) ;
#191 = DIRECTION ( 'NONE',  ( 2.220446049250313081E-16, 1.000000000000000000, 0.000000000000000000 ) ) ;
#192 = COORDINATED_UNIVERSAL_TIME_OFFSET ( 8, 0, .AHEAD. ) ;
#193 = ORIENTED_EDGE ( 'NONE', *, *, #126, .T. ) ;
#194 = DIRECTION ( 'NONE',  ( 0.7071067811865475727, 0.7071067811865474617, 0.000000000000000000 ) ) ;
#195 = CC_DESIGN_PERSON_AND_ORGANIZATION_ASSIGNMENT ( #80, #61, ( #53 ) ) ;
#196 = CALENDAR_DATE ( 2020, 22, 12 ) ;
#197 = CARTESIAN_POINT ( 'NONE',  ( 5.000000000000000888, 5.000000000000001776, 5.000000000000000000 ) ) ;
#198 = EDGE_LOOP ( 'NONE', ( #129, #232, #99, #37 ) ) ;
#199 = LINE ( 'NONE', #64, #83 ) ;
#200 = VECTOR ( 'NONE', #125, 1000.000000000000000 ) ;
#201 = CARTESIAN_POINT ( 'NONE',  ( 0.000000000000000000, 0.000000000000000000, 0.000000000000000000 ) ) ;
#202 = CARTESIAN_POINT ( 'NONE',  ( -5.000000000000000888, -4.999999999999998224, 5.000000000000000000 ) ) ;
#203 = DIRECTION ( 'NONE',  ( 0.000000000000000000, 0.000000000000000000, 1.000000000000000000 ) ) ;
#204 = CARTESIAN_POINT ( 'NONE',  ( 5.000000000000000888, 5.000000000000001776, -5.000000000000000000 ) ) ;
#205 = LINE ( 'NONE', #202, #304 ) ;
#206 = VERTEX_POINT ( 'NONE', #313 ) ;
#207 = CARTESIAN_POINT ( 'NONE',  ( -4.999999999999999112, -5.000000000000000000, 5.000000000000000000 ) ) ;
#208 = CARTESIAN_POINT ( 'NONE',  ( 5.000000000000000888, 5.000000000000001776, 5.000000000000000000 ) ) ;
#209 = PERSON ( 'UNSPECIFIED', 'UNSPECIFIED', 'UNSPECIFIED', ('UNSPECIFIED'), ('UNSPECIFIED'), ('UNSPECIFIED') ) ;
#210 = APPROVAL_PERSON_ORGANIZATION ( #36, #312, #67 ) ;
#211 = CARTESIAN_POINT ( 'NONE',  ( 5.000000000000000888, 5.000000000000001776, 5.000000000000000000 ) ) ;
#212 = DIRECTION ( 'NONE',  ( -0.7071067811865475727, -0.7071067811865474617, 0.000000000000000000 ) ) ;
#213 = DIRECTION ( 'NONE',  ( -0.000000000000000000, 0.000000000000000000, 1.000000000000000000 ) ) ;
#214 = VECTOR ( 'NONE', #212, 1000.000000000000000 ) ;
#215 = EDGE_CURVE ( 'NONE', #25, #86, #218, .T. ) ;
#216 = ORIENTED_EDGE ( 'NONE', *, *, #311, .F. ) ;
#217 = MECHANICAL_CONTEXT ( 'NONE', #14, 'mechanical' ) ;
#218 = LINE ( 'NONE', #211, #24 ) ;
#219 = VECTOR ( 'NONE', #144, 1000.000000000000000 ) ;
#220 = LINE ( 'NONE', #123, #142 ) ;
#221 = EDGE_CURVE ( 'NONE', #168, #57, #305, .T. ) ;
#222 = LINE ( 'NONE', #297, #46 ) ;
#223 = APPROVAL_STATUS ( 'not_yet_approved' ) ;
#224 = ORIENTED_EDGE ( 'NONE', *, *, #159, .T. ) ;
#225 = DIRECTION ( 'NONE',  ( -1.000000000000000000, 4.857225732735059864E-17, 0.000000000000000000 ) ) ;
#226 = DATE_AND_TIME ( #196, #8 ) ;
#227 = CARTESIAN_POINT ( 'NONE',  ( -4.999999999999999112, -5.000000000000000000, -5.000000000000000000 ) ) ;
#228 = VECTOR ( 'NONE', #124, 1000.000000000000000 ) ;
#229 = VECTOR ( 'NONE', #88, 1000.000000000000000 ) ;
#230 = CC_DESIGN_PERSON_AND_ORGANIZATION_ASSIGNMENT ( #176, #172, ( #261 ) ) ;
#231 = PERSON_AND_ORGANIZATION_ROLE ( 'creator' ) ;
#232 = ORIENTED_EDGE ( 'NONE', *, *, #38, .F. ) ;
#233 = ORIENTED_EDGE ( 'NONE', *, *, #238, .F. ) ;
#234 = APPROVAL_DATE_TIME ( #135, #312 ) ;
#235 = EDGE_LOOP ( 'NONE', ( #267, #286, #63, #224 ) ) ;
#236 = CARTESIAN_POINT ( 'NONE',  ( 5.000000000000002665, 5.000000000000000000, 5.000000000000000000 ) ) ;
#237 = CARTESIAN_POINT ( 'NONE',  ( 5.000000000000002665, 5.000000000000000000, -5.000000000000000000 ) ) ;
#238 = EDGE_CURVE ( 'NONE', #51, #242, #147, .T. ) ;
#239 = AXIS2_PLACEMENT_3D ( 'NONE', #133, #160, #191 ) ;
#240 = LOCAL_TIME ( 11, 16, 31.00000000000000000, #241 ) ;
#241 = COORDINATED_UNIVERSAL_TIME_OFFSET ( 8, 0, .AHEAD. ) ;
#242 = VERTEX_POINT ( 'NONE', #72 ) ;
#243 = CARTESIAN_POINT ( 'NONE',  ( 5.000000000000002665, 5.000000000000000000, 5.000000000000000000 ) ) ;
#244 = PERSON_AND_ORGANIZATION_ROLE ( 'classification_officer' ) ;
#245 = CARTESIAN_POINT ( 'NONE',  ( -5.000000000000000888, -4.999999999999998224, -5.000000000000000000 ) ) ;
#246 =( NAMED_UNIT ( * ) SI_UNIT ( $, .STERADIAN. ) SOLID_ANGLE_UNIT ( ) );
#247 = DIRECTION ( 'NONE',  ( 0.000000000000000000, 0.000000000000000000, 1.000000000000000000 ) ) ;
#248 = ADVANCED_FACE ( 'NONE', ( #70 ), #186, .F. ) ;
#249 = ORIENTED_EDGE ( 'NONE', *, *, #41, .F. ) ;
#250 = LINE ( 'NONE', #26, #310 ) ;
#251 = APPROVAL_ROLE ( '' ) ;
#252 = LINE ( 'NONE', #296, #229 ) ;
#253 = CARTESIAN_POINT ( 'NONE',  ( 5.000000000000000888, 5.000000000000001776, 5.000000000000000000 ) ) ;
#254 = VECTOR ( 'NONE', #259, 1000.000000000000000 ) ;
#255 = ORIENTED_EDGE ( 'NONE', *, *, #269, .T. ) ;
#256 = ORIENTED_EDGE ( 'NONE', *, *, #66, .F. ) ;
#257 = AXIS2_PLACEMENT_3D ( 'NONE', #23, #101, #58 ) ;
#258 = AXIS2_PLACEMENT_3D ( 'NONE', #260, #97, #247 ) ;
#259 = DIRECTION ( 'NONE',  ( 1.000000000000000000, 0.000000000000000000, 0.000000000000000000 ) ) ;
#260 = CARTESIAN_POINT ( 'NONE',  ( -5.000000000000000888, -4.999999999999998224, 5.000000000000000000 ) ) ;
#261 = PRODUCT_DEFINITION_FORMATION_WITH_SPECIFIED_SOURCE ( 'ANY', '', #122, .NOT_KNOWN. ) ;
#262 = DIRECTION ( 'NONE',  ( -1.000000000000000000, 1.734723475976807094E-16, 0.000000000000000000 ) ) ;
#263 = ORIENTED_EDGE ( 'NONE', *, *, #78, .F. ) ;
#264 = DIRECTION ( 'NONE',  ( -0.000000000000000000, 0.000000000000000000, -1.000000000000000000 ) ) ;
#265 = ADVANCED_FACE ( 'NONE', ( #283 ), #7, .F. ) ;
#266 = DATE_AND_TIME ( #167, #138 ) ;
#267 = ORIENTED_EDGE ( 'NONE', *, *, #311, .T. ) ;
#268 = CARTESIAN_POINT ( 'NONE',  ( -4.999999999999999112, -5.000000000000000000, 5.000000000000000000 ) ) ;
#269 = EDGE_CURVE ( 'NONE', #57, #206, #10, .T. ) ;
#270 = ORIENTED_EDGE ( 'NONE', *, *, #66, .T. ) ;
#271 = CARTESIAN_POINT ( 'NONE',  ( -4.999999999999999112, -5.000000000000000000, 5.000000000000000000 ) ) ;
#272 = ORGANIZATION ( 'UNSPECIFIED', 'UNSPECIFIED', '' ) ;
#273 = EDGE_LOOP ( 'NONE', ( #256, #171, #146, #190 ) ) ;
#274 = CARTESIAN_POINT ( 'NONE',  ( -4.999999999999999112, -5.000000000000000000, 5.000000000000000000 ) ) ;
#275 = VERTEX_POINT ( 'NONE', #118 ) ;
#276 = PLANE ( 'NONE',  #257 ) ;
#277 = ADVANCED_FACE ( 'NONE', ( #44 ), #42, .F. ) ;
#278 = ORIENTED_EDGE ( 'NONE', *, *, #12, .F. ) ;
#279 = EDGE_CURVE ( 'NONE', #206, #168, #141, .T. ) ;
#280 = AXIS2_PLACEMENT_3D ( 'NONE', #71, #43, #139 ) ;
#281 = FACE_OUTER_BOUND ( 'NONE', #315, .T. ) ;
#282 = PLANE ( 'NONE',  #258 ) ;
#283 = FACE_OUTER_BOUND ( 'NONE', #235, .T. ) ;
#284 = AXIS2_PLACEMENT_3D ( 'NONE', #271, #181, #108 ) ;
#285 = VECTOR ( 'NONE', #264, 1000.000000000000000 ) ;
#286 = ORIENTED_EDGE ( 'NONE', *, *, #50, .F. ) ;
#287 = ORIENTED_EDGE ( 'NONE', *, *, #215, .T. ) ;
#288 = CARTESIAN_POINT ( 'NONE',  ( 5.000000000000000888, -5.000000000000000000, 5.000000000000000000 ) ) ;
#289 = FACE_OUTER_BOUND ( 'NONE', #155, .T. ) ;
#290 = APPROVAL_ROLE ( '' ) ;
#291 = VERTEX_POINT ( 'NONE', #237 ) ;
#292 = LINE ( 'NONE', #253, #74 ) ;
#293 = DIRECTION ( 'NONE',  ( 1.000000000000000000, 0.000000000000000000, 0.000000000000000000 ) ) ;
#294 = ORIENTED_EDGE ( 'NONE', *, *, #189, .T. ) ;
#295 = LINE ( 'NONE', #245, #40 ) ;
#296 = CARTESIAN_POINT ( 'NONE',  ( 5.000000000000002665, 5.000000000000000000, -5.000000000000000000 ) ) ;
#297 = CARTESIAN_POINT ( 'NONE',  ( 5.000000000000000888, 5.000000000000001776, -5.000000000000000000 ) ) ;
#298 = APPROVAL_STATUS ( 'not_yet_approved' ) ;
#299 = LINE ( 'NONE', #204, #136 ) ;
#300 = DATE_AND_TIME ( #39, #109 ) ;
#301 = APPROVAL_PERSON_ORGANIZATION ( #131, #16, #290 ) ;
#302 = DIRECTION ( 'NONE',  ( -0.000000000000000000, -0.000000000000000000, -1.000000000000000000 ) ) ;
#303 = CC_DESIGN_PERSON_AND_ORGANIZATION_ASSIGNMENT ( #54, #231, ( #261 ) ) ;
#304 = VECTOR ( 'NONE', #2, 1000.000000000000000 ) ;
#305 = LINE ( 'NONE', #243, #214 ) ;
#306 = CARTESIAN_POINT ( 'NONE',  ( 5.000000000000002665, 5.000000000000000000, 5.000000000000000000 ) ) ;
#307 = CARTESIAN_POINT ( 'NONE',  ( -4.999999999999999112, 5.000000000000001776, 5.000000000000000000 ) ) ;
#308 = ADVANCED_FACE ( 'NONE', ( #185 ), #282, .F. ) ;
#309 = DIRECTION ( 'NONE',  ( -0.7071067811865474617, 0.7071067811865475727, 0.000000000000000000 ) ) ;
#310 = VECTOR ( 'NONE', #151, 1000.000000000000000 ) ;
#311 = EDGE_CURVE ( 'NONE', #242, #291, #220, .T. ) ;
#312 = APPROVAL ( #298, 'UNSPECIFIED' ) ;
#313 = CARTESIAN_POINT ( 'NONE',  ( 5.000000000000000888, -5.000000000000000000, 5.000000000000000000 ) ) ;
#314 = EDGE_LOOP ( 'NONE', ( #249, #216, #233 ) ) ;
#315 = EDGE_LOOP ( 'NONE', ( #75, #255, #132 ) ) ;
#316 = LINE ( 'NONE', #197, #200 ) ;
#317 =( LENGTH_UNIT ( ) NAMED_UNIT ( * ) SI_UNIT ( .MILLI., .METRE. ) );
#318 = CLOSED_SHELL ( 'NONE', ( #277, #45, #265, #188, #179 ) ) ;
#319 = DIRECTION ( 'NONE',  ( -0.000000000000000000, 0.000000000000000000, -1.000000000000000000 ) ) ;
#320 = APPROVAL_PERSON_ORGANIZATION ( #82, #106, #251 ) ;
#321 =( NAMED_UNIT ( * ) PLANE_ANGLE_UNIT ( ) SI_UNIT ( $, .RADIAN. ) );
ENDSEC;
END-ISO-10303-21;
